999
dxflib 2.0.4.8
  0
SECTION
  2
HEADER
  9
$ACADVER
  1
AC1015
  9
$HANDSEED
  5
FFFF
  9
$DIMADEC
 70
2
  9
$GRIDUNIT
 10
1.0
 20
1.0
  9
$DIMASZ
 40
0.1
  9
$DIMGAP
 40
0.025
  9
$LUNITS
 70
5
  9
$AUPREC
 70
2
  9
$SPLINESEGS
 70
8
  9
$INSUNITS
 70
2
  9
$DIMEXO
 40
0.025
  9
$DIMLUNIT
 70
5
  9
$GRIDMODE
 70
1
  9
$DIMTXT
 40
0.1
  9
$LUPREC
 70
2
  9
$DIMSTYLE
  2
Standard
  9
$PSVPSCALE
 40
0.0063819011769857
  9
$PLIMMIN
 10
0.0
 20
0.0
  9
$PLIMMAX
 10
0.7083333333333334
 20
0.9166666666666665
  9
$DIMEXE
 40
0.05
  9
$PINSBASE
 10
0.0426059739819105
 20
0.1967697623221493
 30
0.0
  9
$DIMAUNIT
 70
0
  9
$AUNITS
 70
0
  0
ENDSEC
  0
SECTION
  2
TABLES
  0
TABLE
  2
VPORT
  5
8
100
AcDbSymbolTable
 70
1
  0
VPORT
  5
30
100
AcDbSymbolTableRecord
100
AcDbViewportTableRecord
  2
*Active
 70
0
 10
0.0
 20
0.0
 11
1.0
 21
1.0
 12
286.3055555555554861
 22
148.5
 13
0.0
 23
0.0
 14
10.0
 24
10.0
 15
10.0
 25
10.0
 16
0.0
 26
0.0
 36
1.0
 17
0.0
 27
0.0
 37
0.0
 40
297.0
 41
1.92798353909465
 42
50.0
 43
0.0
 44
0.0
 50
0.0
 51
0.0
 71
0
 72
100
 73
1
 74
3
 75
1
 76
1
 77
0
 78
0
281
0
 65
1
110
0.0
120
0.0
130
0.0
111
1.0
121
0.0
131
0.0
112
0.0
122
1.0
132
0.0
 79
0
146
0.0
  0
ENDTAB
  0
TABLE
  2
LTYPE
  5
5
100
AcDbSymbolTable
 70
21
  0
LTYPE
  5
14
100
AcDbSymbolTableRecord
100
AcDbLinetypeTableRecord
  2
ByBlock
 70
0
  3

 72
65
 73
0
 40
0.0
  0
LTYPE
  5
15
100
AcDbSymbolTableRecord
100
AcDbLinetypeTableRecord
  2
ByLayer
 70
0
  3

 72
65
 73
0
 40
0.0
  0
LTYPE
  5
16
100
AcDbSymbolTableRecord
100
AcDbLinetypeTableRecord
  2
CONTINUOUS
 70
0
  3
Solid line
 72
65
 73
0
 40
0.0
  0
LTYPE
  5
31
100
AcDbSymbolTableRecord
100
AcDbLinetypeTableRecord
  2
DOT
 70
0
  3
Dot . . . . . . . . . . . . . . . . . . . . . .
 72
65
 73
2
 40
6.3499999999999996
 49
0.0
 74
0
 49
-6.3499999999999996
 74
0
  0
LTYPE
  5
32
100
AcDbSymbolTableRecord
100
AcDbLinetypeTableRecord
  2
DOT2
 70
0
  3
Dot (.5x) .....................................
 72
65
 73
2
 40
3.1749999999999998
 49
0.0
 74
0
 49
-3.1749999999999998
 74
0
  0
LTYPE
  5
33
100
AcDbSymbolTableRecord
100
AcDbLinetypeTableRecord
  2
DOTX2
 70
0
  3
Dot (2x) .  .  .  .  .  .  .  .  .  .  .  .  .
 72
65
 73
2
 40
12.6999999999999993
 49
0.0
 74
0
 49
-12.6999999999999993
 74
0
  0
LTYPE
  5
34
100
AcDbSymbolTableRecord
100
AcDbLinetypeTableRecord
  2
DASHED
 70
0
  3
Dashed __ __ __ __ __ __ __ __ __ __ __ __ __ _
 72
65
 73
2
 40
19.0500000000000007
 49
12.6999999999999993
 74
0
 49
-6.3499999999999996
 74
0
  0
LTYPE
  5
35
100
AcDbSymbolTableRecord
100
AcDbLinetypeTableRecord
  2
DASHED2
 70
0
  3
Dashed (.5x) _ _ _ _ _ _ _ _ _ _ _ _ _ _ _ _ _
 72
65
 73
2
 40
9.5250000000000004
 49
6.3499999999999996
 74
0
 49
-3.1749999999999998
 74
0
  0
LTYPE
  5
36
100
AcDbSymbolTableRecord
100
AcDbLinetypeTableRecord
  2
DASHEDX2
 70
0
  3
Dashed (2x) ____  ____  ____  ____  ____  ___
 72
65
 73
2
 40
38.1000000000000014
 49
25.3999999999999986
 74
0
 49
-12.6999999999999993
 74
0
  0
LTYPE
  5
37
100
AcDbSymbolTableRecord
100
AcDbLinetypeTableRecord
  2
DASHDOT
 70
0
  3
Dash dot __ . __ . __ . __ . __ . __ . __ . __
 72
65
 73
4
 40
25.3999999999999986
 49
12.6999999999999993
 74
0
 49
-6.3499999999999996
 74
0
 49
0.0
 74
0
 49
-6.3499999999999996
 74
0
  0
LTYPE
  5
38
100
AcDbSymbolTableRecord
100
AcDbLinetypeTableRecord
  2
DASHDOT2
 70
0
  3
Dash dot (.5x) _._._._._._._._._._._._._._._.
 72
65
 73
4
 40
12.6999999999999993
 49
6.3499999999999996
 74
0
 49
-3.1749999999999998
 74
0
 49
0.0
 74
0
 49
-3.1749999999999998
 74
0
  0
LTYPE
  5
39
100
AcDbSymbolTableRecord
100
AcDbLinetypeTableRecord
  2
DASHDOTX2
 70
0
  3
Dash dot (2x) ____  .  ____  .  ____  .  ___
 72
65
 73
4
 40
50.7999999999999972
 49
25.3999999999999986
 74
0
 49
-12.6999999999999993
 74
0
 49
0.0
 74
0
 49
-12.6999999999999993
 74
0
  0
LTYPE
  5
3A
100
AcDbSymbolTableRecord
100
AcDbLinetypeTableRecord
  2
DIVIDE
 70
0
  3
Divide ____ . . ____ . . ____ . . ____ . . ____
 72
65
 73
6
 40
31.75
 49
12.6999999999999993
 74
0
 49
-6.3499999999999996
 74
0
 49
0.0
 74
0
 49
-6.3499999999999996
 74
0
 49
0.0
 74
0
 49
-6.3499999999999996
 74
0
  0
LTYPE
  5
3B
100
AcDbSymbolTableRecord
100
AcDbLinetypeTableRecord
  2
DIVIDE2
 70
0
  3
Divide (.5x) __..__..__..__..__..__..__..__.._
 72
65
 73
6
 40
15.875
 49
6.3499999999999996
 74
0
 49
-3.1749999999999998
 74
0
 49
0.0
 74
0
 49
-3.1749999999999998
 74
0
 49
0.0
 74
0
 49
-3.1749999999999998
 74
0
  0
LTYPE
  5
3C
100
AcDbSymbolTableRecord
100
AcDbLinetypeTableRecord
  2
DIVIDEX2
 70
0
  3
Divide (2x) ________  .  .  ________  .  .  _
 72
65
 73
6
 40
63.5
 49
25.3999999999999986
 74
0
 49
-12.6999999999999993
 74
0
 49
0.0
 74
0
 49
-12.6999999999999993
 74
0
 49
0.0
 74
0
 49
-12.6999999999999993
 74
0
  0
LTYPE
  5
3D
100
AcDbSymbolTableRecord
100
AcDbLinetypeTableRecord
  2
CENTER
 70
0
  3
Center ____ _ ____ _ ____ _ ____ _ ____ _ ____
 72
65
 73
4
 40
50.7999999999999972
 49
31.75
 74
0
 49
-6.3499999999999996
 74
0
 49
6.3499999999999996
 74
0
 49
-6.3499999999999996
 74
0
  0
LTYPE
  5
3E
100
AcDbSymbolTableRecord
100
AcDbLinetypeTableRecord
  2
CENTER2
 70
0
  3
Center (.5x) ___ _ ___ _ ___ _ ___ _ ___ _ ___
 72
65
 73
4
 40
28.5749999999999993
 49
19.0500000000000007
 74
0
 49
-3.1749999999999998
 74
0
 49
3.1749999999999998
 74
0
 49
-3.1749999999999998
 74
0
  0
LTYPE
  5
3F
100
AcDbSymbolTableRecord
100
AcDbLinetypeTableRecord
  2
CENTERX2
 70
0
  3
Center (2x) ________  __  ________  __  _____
 72
65
 73
4
 40
101.5999999999999943
 49
63.5
 74
0
 49
-12.6999999999999993
 74
0
 49
12.6999999999999993
 74
0
 49
-12.6999999999999993
 74
0
  0
LTYPE
  5
40
100
AcDbSymbolTableRecord
100
AcDbLinetypeTableRecord
  2
BORDER
 70
0
  3
Border __ __ . __ __ . __ __ . __ __ . __ __ .
 72
65
 73
6
 40
44.4500000000000028
 49
12.6999999999999993
 74
0
 49
-6.3499999999999996
 74
0
 49
12.6999999999999993
 74
0
 49
-6.3499999999999996
 74
0
 49
0.0
 74
0
 49
-6.3499999999999996
 74
0
  0
LTYPE
  5
41
100
AcDbSymbolTableRecord
100
AcDbLinetypeTableRecord
  2
BORDER2
 70
0
  3
Border (.5x) __.__.__.__.__.__.__.__.__.__.__.
 72
65
 73
6
 40
22.2250000000000014
 49
6.3499999999999996
 74
0
 49
-3.1749999999999998
 74
0
 49
6.3499999999999996
 74
0
 49
-3.1749999999999998
 74
0
 49
0.0
 74
0
 49
-3.1749999999999998
 74
0
  0
LTYPE
  5
42
100
AcDbSymbolTableRecord
100
AcDbLinetypeTableRecord
  2
BORDERX2
 70
0
  3
Border (2x) ____  ____  .  ____  ____  .  ___
 72
65
 73
6
 40
88.9000000000000057
 49
25.3999999999999986
 74
0
 49
-12.6999999999999993
 74
0
 49
25.3999999999999986
 74
0
 49
-12.6999999999999993
 74
0
 49
0.0
 74
0
 49
-12.6999999999999993
 74
0
  0
ENDTAB
  0
TABLE
  2
LAYER
  5
2
100
AcDbSymbolTable
 70
4
  0
LAYER
  5
10
100
AcDbSymbolTableRecord
100
AcDbLayerTableRecord
  2
0
 70
0
 62
7
  6
CONTINUOUS
370
0
390
F
  0
LAYER
  5
43
100
AcDbSymbolTableRecord
100
AcDbLayerTableRecord
  2
Electrical
 70
0
 62
8
  6
CENTER
370
0
390
F
  0
LAYER
  5
44
100
AcDbSymbolTableRecord
100
AcDbLayerTableRecord
  2
Tables
 70
0
 62
6
  6
CONTINUOUS
370
0
390
F
  0
LAYER
  5
45
100
AcDbSymbolTableRecord
100
AcDbLayerTableRecord
  2
Network
 70
0
 62
1
  6
CONTINUOUS
370
-3
390
F
  0
ENDTAB
  0
TABLE
  2
STYLE
  5
3
100
AcDbSymbolTable
 70
1
  0
STYLE
  5
11
100
AcDbSymbolTableRecord
100
AcDbTextStyleTableRecord
  2
Standard
 70
0
 40
0.0
 41
0.75
 50
0.0
 71
0
 42
2.5
  3
txt
  4

  0
ENDTAB
  0
TABLE
  2
VIEW
  5
6
100
AcDbSymbolTable
 70
0
  0
ENDTAB
  0
TABLE
  2
UCS
  5
7
100
AcDbSymbolTable
 70
0
  0
ENDTAB
  0
TABLE
  2
APPID
  5
9
100
AcDbSymbolTable
 70
1
  0
APPID
  5
12
100
AcDbSymbolTableRecord
100
AcDbRegAppTableRecord
  2
ACAD
 70
0
  0
ENDTAB
  0
TABLE
  2
DIMSTYLE
  5
A
100
AcDbSymbolTable
 70
1
100
AcDbDimStyleTable
 71
0
  0
DIMSTYLE
105
27
100
AcDbSymbolTableRecord
100
AcDbDimStyleTableRecord
  2
Standard
 41
0.1
 42
0.025
 43
3.75
 44
0.05
 70
0
 73
0
 74
0
 77
1
 78
8
140
0.1
141
2.5
143
0.03937007874016
147
0.025
171
3
172
1
271
2
272
2
274
3
278
44
283
0
284
8
340
11
  0
ENDTAB
  0
TABLE
  2
BLOCK_RECORD
  5
1
100
AcDbSymbolTable
 70
1
  0
BLOCK_RECORD
  5
1F
100
AcDbSymbolTableRecord
100
AcDbBlockTableRecord
  2
*Model_Space
340
22
  0
BLOCK_RECORD
  5
1B
100
AcDbSymbolTableRecord
100
AcDbBlockTableRecord
  2
*Paper_Space
340
1E
  0
BLOCK_RECORD
  5
23
100
AcDbSymbolTableRecord
100
AcDbBlockTableRecord
  2
*Paper_Space0
340
26
  0
ENDTAB
  0
ENDSEC
  0
SECTION
  2
BLOCKS
  0
BLOCK
  5
20
100
AcDbEntity
  8
0
100
AcDbBlockBegin
  2
*Model_Space
 70
0
 10
0.0
 20
0.0
 30
0.0
  3
*Model_Space
  1

  0
ENDBLK
  5
21
100
AcDbEntity
  8
0
100
AcDbBlockEnd
  0
BLOCK
  5
1C
100
AcDbEntity
 67
1
  8
0
100
AcDbBlockBegin
  2
*Paper_Space
 70
0
 10
0.0
 20
0.0
 30
0.0
  3
*Paper_Space
  1

  0
ENDBLK
  5
1D
100
AcDbEntity
 67
1
  8
0
100
AcDbBlockEnd
  0
BLOCK
  5
24
100
AcDbEntity
  8
0
100
AcDbBlockBegin
  2
*Paper_Space0
 70
0
 10
0.0
 20
0.0
 30
0.0
  3
*Paper_Space0
  1

  0
ENDBLK
  5
25
100
AcDbEntity
  8
0
100
AcDbBlockEnd
  0
ENDSEC
  0
SECTION
  2
ENTITIES
  0
LINE
  5
46
100
AcDbEntity
100
AcDbLine
  8
0
 62
256
370
-1
  6
ByLayer
 10
0.0
 20
0.0
 30
0.0
 11
11.3333333333333339
 21
0.0
 31
0.0
  0
LINE
  5
47
100
AcDbEntity
100
AcDbLine
  8
0
 62
256
370
-1
  6
ByLayer
 10
19.0
 20
0.0
 30
0.0
 11
39.0
 21
0.0
 31
0.0
  0
LINE
  5
48
100
AcDbEntity
100
AcDbLine
  8
0
 62
256
370
-1
  6
ByLayer
 10
39.0
 20
0.0
 30
0.0
 11
39.0
 21
2.8333333333333335
 31
0.0
  0
LINE
  5
49
100
AcDbEntity
100
AcDbLine
  8
0
 62
256
370
-1
  6
ByLayer
 10
39.0
 20
2.8333333333333335
 30
0.0
 11
42.0
 21
2.8333333333333335
 31
0.0
  0
LINE
  5
4A
100
AcDbEntity
100
AcDbLine
  8
0
 62
256
370
-1
  6
ByLayer
 10
42.0
 20
2.8333333333333335
 30
0.0
 11
42.0
 21
0.0000033333333334
 31
0.0
  0
LINE
  5
4B
100
AcDbEntity
100
AcDbLine
  8
0
 62
256
370
-1
  6
ByLayer
 10
42.0
 20
0.0000033333333334
 30
0.0
 11
68.1666666666666714
 21
0.0000033333333334
 31
0.0
  0
LINE
  5
4C
100
AcDbEntity
100
AcDbLine
  8
0
 62
256
370
-1
  6
ByLayer
 10
68.1666666666666714
 20
0.0000033333333334
 30
0.0
 11
80.0
 21
0.0
 31
0.0
  0
LINE
  5
4D
100
AcDbEntity
100
AcDbLine
  8
0
 62
256
370
-1
  6
ByLayer
 10
68.1666666666666714
 20
0.0000033333333334
 30
0.0
 11
79.9911321448893489
 21
4.3037568035146645
 31
0.0
  0
LINE
  5
4E
100
AcDbEntity
100
AcDbLine
  8
0
 62
256
370
-1
  6
ByLayer
 10
79.9911321448893489
 20
4.3037568035146645
 30
0.0
 11
79.9911321448893489
 21
19.1370901368479984
 31
0.0
  0
LINE
  5
4F
100
AcDbEntity
100
AcDbLine
  8
0
 62
256
370
-1
  6
ByLayer
 10
79.9911321448893489
 20
19.1370901368479984
 30
0.0
 11
79.9911321448893489
 21
32.3037568035146663
 31
0.0
  0
LINE
  5
50
100
AcDbEntity
100
AcDbLine
  8
0
 62
256
370
-1
  6
ByLayer
 10
79.9911321448893489
 20
19.1370901368479984
 30
0.0
 11
71.1577988115560203
 21
32.3037568035146663
 31
0.0
  0
LINE
  5
51
100
AcDbEntity
100
AcDbLine
  8
0
 62
256
370
-1
  6
ByLayer
 10
71.1577988115560203
 20
32.3037568035146663
 30
0.0
 11
71.1577988115560203
 21
43.9704234701813306
 31
0.0
  0
LINE
  5
52
100
AcDbEntity
100
AcDbLine
  8
0
 62
256
370
-1
  6
ByLayer
 10
71.1577988115560203
 20
43.9704234701813306
 30
0.0
 11
79.9911321448893489
 21
57.1370901368479949
 31
0.0
  0
LINE
  5
53
100
AcDbEntity
100
AcDbLine
  8
0
 62
256
370
-1
  6
ByLayer
 10
79.9911321448893489
 20
57.1370901368479949
 30
0.0
 11
79.9911321448893489
 21
19.1370901368479984
 31
0.0
  0
LINE
  5
54
100
AcDbEntity
100
AcDbLine
  8
0
 62
256
370
-1
  6
ByLayer
 10
79.9911321448893489
 20
57.1370901368479949
 30
0.0
 11
79.9911321448893489
 21
77.7204234701813306
 31
0.0
  0
LINE
  5
55
100
AcDbEntity
100
AcDbLine
  8
0
 62
256
370
-1
  6
ByLayer
 10
79.9911321448893489
 20
77.7204234701813306
 30
0.0
 11
79.9911321448893489
 21
81.9704234701813306
 31
0.0
  0
LINE
  5
56
100
AcDbEntity
100
AcDbLine
  8
0
 62
256
370
-1
  6
ByLayer
 10
79.9911321448893489
 20
81.9704234701813306
 30
0.0
 11
68.1577991448893528
 21
81.9704234701813306
 31
0.0
  0
LINE
  5
57
100
AcDbEntity
100
AcDbLine
  8
0
 62
256
370
-1
  6
ByLayer
 10
68.1577991448893528
 20
81.9704234701813306
 30
0.0
 11
79.9911321448893489
 21
77.7204234701813306
 31
0.0
  0
LINE
  5
58
100
AcDbEntity
100
AcDbLine
  8
0
 62
256
370
-1
  6
ByLayer
 10
68.1577991448893528
 20
81.9704234701813306
 30
0.0
 11
42.4911324782226814
 21
81.9704234701813306
 31
0.0
  0
LINE
  5
59
100
AcDbEntity
100
AcDbLine
  8
0
 62
256
370
-1
  6
ByLayer
 10
42.4911324782226814
 20
81.9704234701813306
 30
0.0
 11
42.4911324782226814
 21
79.137090136848002
 31
0.0
  0
LINE
  5
5A
100
AcDbEntity
100
AcDbLine
  8
0
 62
256
370
-1
  6
ByLayer
 10
42.4911324782226814
 20
79.137090136848002
 30
0.0
 11
39.4911324782226814
 21
79.137090136848002
 31
0.0
  0
LINE
  5
5B
100
AcDbEntity
100
AcDbLine
  8
0
 62
256
370
-1
  6
ByLayer
 10
39.4911324782226814
 20
79.137090136848002
 30
0.0
 11
39.4911324782226814
 21
81.9704234701813306
 31
0.0
  0
LINE
  5
5C
100
AcDbEntity
100
AcDbLine
  8
0
 62
256
370
-1
  6
ByLayer
 10
39.4911324782226814
 20
81.9704234701813306
 30
0.0
 11
7.7411324782226814
 21
81.9704234701813306
 31
0.0
  0
LINE
  5
5D
100
AcDbEntity
100
AcDbLine
  8
0
 62
256
370
-1
  6
ByLayer
 10
7.7411324782226814
 20
81.9704234701813306
 30
0.0
 11
0.0
 21
82.0
 31
0.0
  0
LINE
  5
5E
100
AcDbEntity
100
AcDbLine
  8
0
 62
256
370
-1
  6
ByLayer
 10
0.0
 20
82.0
 30
0.0
 11
0.0
 21
76.9166666666666714
 31
0.0
  0
LINE
  5
5F
100
AcDbEntity
100
AcDbLine
  8
0
 62
256
370
-1
  6
ByLayer
 10
0.0
 20
65.5833333333333428
 30
0.0
 11
0.0
 21
41.5000000000000142
 31
0.0
  0
LINE
  5
60
100
AcDbEntity
100
AcDbLine
  8
0
 62
256
370
-1
  6
ByLayer
 10
0.0
 20
41.5000000000000142
 30
0.0
 11
8.5833333333333339
 21
41.5000000000000142
 31
0.0
  0
LINE
  5
61
100
AcDbEntity
100
AcDbLine
  8
0
 62
256
370
-1
  6
ByLayer
 10
0.0
 20
0.0
 30
0.0
 11
0.0
 21
34.1666666666666643
 31
0.0
  0
LINE
  5
62
100
AcDbEntity
100
AcDbLine
  8
0
 62
256
370
-1
  6
ByLayer
 10
0.0
 20
34.1666666666666643
 30
0.0
 11
8.5833333333333339
 21
34.1666666666666643
 31
0.0
  0
LINE
  5
63
100
AcDbEntity
100
AcDbLine
  8
0
 62
256
370
-1
  6
ByLayer
 10
8.5833333333333339
 20
34.1666666666666643
 30
0.0
 11
8.5833333333333339
 21
41.5000000000000142
 31
0.0
  0
CIRCLE
  5
64
100
AcDbEntity
100
AcDbCircle
  8
Electrical
 62
256
370
-1
  6
ByLayer
 10
79.9911321448893489
 20
57.1370901368479949
 30
0.0
 40
0.25
  0
CIRCLE
  5
65
100
AcDbEntity
100
AcDbCircle
  8
Electrical
 62
256
370
-1
  6
ByLayer
 10
79.9911321448893489
 20
19.1370901368479984
 30
0.0
 40
0.25
  0
CIRCLE
  5
66
100
AcDbEntity
100
AcDbCircle
  8
Electrical
 62
256
370
-1
  6
ByLayer
 10
79.9911321448893489
 20
77.7204234701813306
 30
0.0
 40
0.25
  0
CIRCLE
  5
67
100
AcDbEntity
100
AcDbCircle
  8
Electrical
 62
256
370
-1
  6
ByLayer
 10
68.1577991448893528
 20
81.9704234701813306
 30
0.0
 40
0.25
  0
CIRCLE
  5
68
100
AcDbEntity
100
AcDbCircle
  8
Electrical
 62
256
370
-1
  6
ByLayer
 10
0.0
 20
65.5833333333333428
 30
0.0
 40
0.25
  0
CIRCLE
  5
69
100
AcDbEntity
100
AcDbCircle
  8
Electrical
 62
256
370
-1
  6
ByLayer
 10
68.1666666666666714
 20
0.0000033333333334
 30
0.0
 40
0.25
  0
CIRCLE
  5
6A
100
AcDbEntity
100
AcDbCircle
  8
Electrical
 62
256
370
-1
  6
ByLayer
 10
62.5664000000005913
 20
0.0000033333333334
 30
0.0
 40
0.25
  0
CIRCLE
  5
6B
100
AcDbEntity
100
AcDbCircle
  8
Electrical
 62
256
370
-1
  6
ByLayer
 10
36.0448000000003503
 20
0.0
 30
0.0
 40
0.25
  0
CIRCLE
  5
6C
100
AcDbEntity
100
AcDbCircle
  8
Electrical
 62
256
370
-1
  6
ByLayer
 10
26.4192000000002487
 20
0.0
 30
0.0
 40
0.25
  0
CIRCLE
  5
6D
100
AcDbEntity
100
AcDbCircle
  8
Electrical
 62
256
370
-1
  6
ByLayer
 10
3.0720000000000289
 20
0.0
 30
0.0
 40
0.25
  0
CIRCLE
  5
6E
100
AcDbEntity
100
AcDbCircle
  8
Electrical
 62
256
370
-1
  6
ByLayer
 10
0.0
 20
3.379200000000032
 30
0.0
 40
0.25
  0
CIRCLE
  5
6F
100
AcDbEntity
100
AcDbCircle
  8
Electrical
 62
256
370
-1
  6
ByLayer
 10
7.3728000000000709
 20
0.0
 30
0.0
 40
0.25
  0
CIRCLE
  5
70
100
AcDbEntity
100
AcDbCircle
  8
Electrical
 62
256
370
-1
  6
ByLayer
 10
0.0
 20
26.5216000000002516
 30
0.0
 40
0.25
  0
CIRCLE
  5
71
100
AcDbEntity
100
AcDbCircle
  8
Electrical
 62
256
370
-1
  6
ByLayer
 10
0.0
 20
49.2544000000004658
 30
0.0
 40
0.25
  0
CIRCLE
  5
72
100
AcDbEntity
100
AcDbCircle
  8
Electrical
 62
256
370
-1
  6
ByLayer
 10
22.0160000000002043
 20
81.9704234701813306
 30
0.0
 40
0.25
  0
CIRCLE
  5
73
100
AcDbEntity
100
AcDbCircle
  8
Electrical
 62
256
370
-1
  6
ByLayer
 10
59.0848000000005555
 20
81.9704234701813306
 30
0.0
 40
0.25
  0
CIRCLE
  5
74
100
AcDbEntity
100
AcDbCircle
  8
Electrical
 62
256
370
-1
  6
ByLayer
 10
76.5051111727376707
 20
51.9409456689238027
 30
0.0
 40
0.25
  0
CIRCLE
  5
75
100
AcDbEntity
100
AcDbCircle
  8
Tables
 62
256
370
-1
  6
ByLayer
 10
24.0
 20
60.0
 30
0.0
 40
4.0
  0
CIRCLE
  5
76
100
AcDbEntity
100
AcDbCircle
  8
Tables
 62
256
370
-1
  6
ByLayer
 10
16.0
 20
74.0
 30
0.0
 40
4.0
  0
CIRCLE
  5
77
100
AcDbEntity
100
AcDbCircle
  8
Tables
 62
256
370
-1
  6
ByLayer
 10
40.0
 20
60.0
 30
0.0
 40
4.0
  0
CIRCLE
  5
78
100
AcDbEntity
100
AcDbCircle
  8
Tables
 62
256
370
-1
  6
ByLayer
 10
56.0
 20
60.0
 30
0.0
 40
4.0
  0
CIRCLE
  5
79
100
AcDbEntity
100
AcDbCircle
  8
Tables
 62
256
370
-1
  6
ByLayer
 10
48.0
 20
74.0
 30
0.0
 40
4.0
  0
CIRCLE
  5
7A
100
AcDbEntity
100
AcDbCircle
  8
Tables
 62
256
370
-1
  6
ByLayer
 10
32.0
 20
74.0
 30
0.0
 40
4.0
  0
CIRCLE
  5
7B
100
AcDbEntity
100
AcDbCircle
  8
Tables
 62
256
370
-1
  6
ByLayer
 10
64.0
 20
74.0
 30
0.0
 40
4.0
  0
CIRCLE
  5
7C
100
AcDbEntity
100
AcDbCircle
  8
Tables
 62
256
370
-1
  6
ByLayer
 10
72.0
 20
60.0
 30
0.0
 40
4.0
  0
CIRCLE
  5
7D
100
AcDbEntity
100
AcDbCircle
  8
Tables
 62
256
370
-1
  6
ByLayer
 10
64.0
 20
46.0
 30
0.0
 40
4.0
  0
LINE
  5
7E
100
AcDbEntity
100
AcDbLine
  8
Tables
 62
256
370
-1
  6
ByLayer
 10
36.5
 20
45.5
 30
0.0
 11
44.5
 21
45.5
 31
0.0
  0
LINE
  5
7F
100
AcDbEntity
100
AcDbLine
  8
Tables
 62
256
370
-1
  6
ByLayer
 10
44.5
 20
48.0
 30
0.0
 11
36.5
 21
48.0
 31
0.0
  0
LINE
  5
80
100
AcDbEntity
100
AcDbLine
  8
Tables
 62
256
370
-1
  6
ByLayer
 10
36.5
 20
48.0
 30
0.0
 11
36.5
 21
45.5
 31
0.0
  0
LINE
  5
81
100
AcDbEntity
100
AcDbLine
  8
Tables
 62
256
370
-1
  6
ByLayer
 10
47.0
 20
48.0
 30
0.0
 11
47.0
 21
40.0
 31
0.0
  0
LINE
  5
82
100
AcDbEntity
100
AcDbLine
  8
Tables
 62
256
370
-1
  6
ByLayer
 10
47.0
 20
40.0
 30
0.0
 11
44.5
 21
40.0
 31
0.0
  0
LINE
  5
83
100
AcDbEntity
100
AcDbLine
  8
Tables
 62
256
370
-1
  6
ByLayer
 10
44.5
 20
40.0
 30
0.0
 11
44.5
 21
48.0
 31
0.0
  0
LINE
  5
84
100
AcDbEntity
100
AcDbLine
  8
Tables
 62
256
370
-1
  6
ByLayer
 10
34.0
 20
40.0
 30
0.0
 11
36.5
 21
40.0
 31
0.0
  0
LINE
  5
85
100
AcDbEntity
100
AcDbLine
  8
Tables
 62
256
370
-1
  6
ByLayer
 10
36.5
 20
40.0
 30
0.0
 11
36.5
 21
48.0
 31
0.0
  0
LINE
  5
86
100
AcDbEntity
100
AcDbLine
  8
Tables
 62
256
370
-1
  6
ByLayer
 10
36.5
 20
48.0
 30
0.0
 11
34.0
 21
48.0
 31
0.0
  0
LINE
  5
87
100
AcDbEntity
100
AcDbLine
  8
Tables
 62
256
370
-1
  6
ByLayer
 10
34.0
 20
48.0
 30
0.0
 11
34.0
 21
40.0
 31
0.0
  0
LINE
  5
88
100
AcDbEntity
100
AcDbLine
  8
Tables
 62
256
370
-1
  6
ByLayer
 10
44.5
 20
45.5
 30
0.0
 11
44.5
 21
48.0
 31
0.0
  0
LINE
  5
89
100
AcDbEntity
100
AcDbLine
  8
Tables
 62
256
370
-1
  6
ByLayer
 10
44.5
 20
48.0
 30
0.0
 11
47.0
 21
48.0
 31
0.0
  0
LINE
  5
8A
100
AcDbEntity
100
AcDbLine
  8
Electrical
 62
256
370
-1
  6
ByLayer
 10
64.0
 20
46.0
 30
0.0
 11
47.0
 21
44.0
 31
0.0
  0
MTEXT
  5
8B
100
AcDbEntity
100
AcDbMText
  8
Electrical
 62
256
370
-1
  6
ByLayer
 10
92.0
 20
32.0
 30
0.0
 40
1.0
 41
100.0
 71
1
 72
2
  1
Electrical
  7
normallatin1
 50
0.0
 73
0
 44
1.0
  0
LINE
  5
8C
100
AcDbEntity
100
AcDbLine
  8
Network
 62
256
370
-1
  6
ByLayer
 10
72.25
 20
60.0
 30
0.0
 11
64.25
 21
46.0
 31
0.0
  0
LINE
  5
8D
100
AcDbEntity
100
AcDbLine
  8
Network
 62
256
370
-1
  6
ByLayer
 10
64.25
 20
74.0
 30
0.0
 11
56.25
 21
60.0
 31
0.0
  0
LINE
  5
8E
100
AcDbEntity
100
AcDbLine
  8
Network
 62
256
370
-1
  6
ByLayer
 10
48.25
 20
74.0
 30
0.0
 11
40.25
 21
60.0
 31
0.0
  0
LINE
  5
8F
100
AcDbEntity
100
AcDbLine
  8
Network
 62
256
370
-1
  6
ByLayer
 10
16.25
 20
74.0
 30
0.0
 11
24.25
 21
60.0
 31
0.0
  0
LINE
  5
90
100
AcDbEntity
100
AcDbLine
  8
Network
 62
256
370
-1
  6
ByLayer
 10
32.25
 20
74.0
 30
0.0
 11
40.25
 21
60.0
 31
0.0
  0
LINE
  5
91
100
AcDbEntity
100
AcDbLine
  8
Network
 62
256
370
-1
  6
ByLayer
 10
40.25
 20
60.0
 30
0.0
 11
40.75
 21
48.0
 31
0.0
  0
LINE
  5
92
100
AcDbEntity
100
AcDbLine
  8
Network
 62
256
370
-1
  6
ByLayer
 10
64.25
 20
46.0
 30
0.0
 11
47.25
 21
44.0
 31
0.0
  0
LINE
  5
93
100
AcDbEntity
100
AcDbLine
  8
Network
 62
256
370
-1
  6
ByLayer
 10
56.25
 20
60.0
 30
0.0
 11
47.25
 21
44.0
 31
0.0
  0
LINE
  5
94
100
AcDbEntity
100
AcDbLine
  8
Network
 62
256
370
-1
  6
ByLayer
 10
24.25
 20
60.0
 30
0.0
 11
35.5
 21
48.0
 31
0.0
  0
MTEXT
  5
95
100
AcDbEntity
100
AcDbMText
  8
Network
 62
256
370
-1
  6
ByLayer
 10
92.25
 20
28.0
 30
0.0
 40
1.0
 41
100.0
 71
1
 72
2
  1
Network
  7
normallatin1
 50
0.0
 73
0
 44
1.0
  0
LINE
  5
96
100
AcDbEntity
100
AcDbLine
  8
Tables
 62
256
370
-1
  6
ByLayer
 10
8.5833333333333339
 20
38.0175444241316427
 30
0.0
 11
71.1577988115560203
 21
38.0175444241316427
 31
0.0
  0
LINE
  5
97
100
AcDbEntity
100
AcDbLine
  8
Tables
 62
256
370
-1
  6
ByLayer
 10
7.7071067811865479
 20
50.7071067811865461
 30
0.0
 11
14.7781745930520216
 21
43.6360389693210706
 31
0.0
  0
LINE
  5
98
100
AcDbEntity
100
AcDbLine
  8
Tables
 62
256
370
-1
  6
ByLayer
 10
14.7781745930520216
 20
43.6360389693210706
 30
0.0
 11
14.0710678118654755
 21
42.9289321881345245
 31
0.0
  0
LINE
  5
99
100
AcDbEntity
100
AcDbLine
  8
Tables
 62
256
370
-1
  6
ByLayer
 10
14.0710678118654755
 20
42.9289321881345245
 30
0.0
 11
7.0
 21
50.0
 31
0.0
  0
LINE
  5
9A
100
AcDbEntity
100
AcDbLine
  8
Tables
 62
256
370
-1
  6
ByLayer
 10
7.0
 20
50.0
 30
0.0
 11
7.7071067811865479
 21
50.7071067811865461
 31
0.0
  0
LINE
  5
9B
100
AcDbEntity
100
AcDbLine
  8
Tables
 62
256
370
-1
  6
ByLayer
 10
53.0
 20
40.0
 30
0.0
 11
55.0
 21
40.0
 31
0.0
  0
LINE
  5
9C
100
AcDbEntity
100
AcDbLine
  8
Tables
 62
256
370
-1
  6
ByLayer
 10
55.0
 20
40.0
 30
0.0
 11
55.0
 21
38.0
 31
0.0
  0
LINE
  5
9D
100
AcDbEntity
100
AcDbLine
  8
Tables
 62
256
370
-1
  6
ByLayer
 10
55.0
 20
38.0
 30
0.0
 11
53.0
 21
38.0
 31
0.0
  0
LINE
  5
9E
100
AcDbEntity
100
AcDbLine
  8
Tables
 62
256
370
-1
  6
ByLayer
 10
53.0
 20
38.0
 30
0.0
 11
53.0
 21
40.0
 31
0.0
  0
LINE
  5
9F
100
AcDbEntity
100
AcDbLine
  8
Tables
 62
256
370
-1
  6
ByLayer
 10
56.0
 20
40.0
 30
0.0
 11
58.0
 21
40.0
 31
0.0
  0
LINE
  5
A0
100
AcDbEntity
100
AcDbLine
  8
Tables
 62
256
370
-1
  6
ByLayer
 10
58.0
 20
40.0
 30
0.0
 11
58.0
 21
38.0
 31
0.0
  0
LINE
  5
A1
100
AcDbEntity
100
AcDbLine
  8
Tables
 62
256
370
-1
  6
ByLayer
 10
58.0
 20
38.0
 30
0.0
 11
56.0
 21
38.0
 31
0.0
  0
LINE
  5
A2
100
AcDbEntity
100
AcDbLine
  8
Tables
 62
256
370
-1
  6
ByLayer
 10
56.0
 20
38.0
 30
0.0
 11
56.0
 21
40.0
 31
0.0
  0
ENDSEC
  0
SECTION
  2
OBJECTS
  0
DICTIONARY
  5
C
100
AcDbDictionary
280
0
281
1
  3
ACAD_GROUP
350
D
  3
ACAD_LAYOUT
350
1A
  3
ACAD_MLINESTYLE
350
17
  3
ACAD_PLOTSETTINGS
350
19
  3
ACAD_PLOTSTYLENAME
350
E
  3
AcDbVariableDictionary
350
A3
  0
DICTIONARY
  5
D
100
AcDbDictionary
280
0
281
1
  0
ACDBDICTIONARYWDFLT
  5
E
100
AcDbDictionary
281
1
  3
Normal
350
F
100
AcDbDictionaryWithDefault
340
F
  0
ACDBPLACEHOLDER
  5
F
  0
DICTIONARY
  5
17
100
AcDbDictionary
280
0
281
1
  3
Standard
350
18
  0
MLINESTYLE
  5
18
100
AcDbMlineStyle
  2
STANDARD
 70
0
  3

 62
256
 51
90.0
 52
90.0
 71
2
 49
0.5
 62
256
  6
BYLAYER
 49
-0.5
 62
256
  6
BYLAYER
  0
DICTIONARY
  5
19
100
AcDbDictionary
280
0
281
1
  0
DICTIONARY
  5
1A
100
AcDbDictionary
281
1
  3
Layout1
350
1E
  3
Layout2
350
26
  3
Model
350
22
  0
LAYOUT
  5
1E
100
AcDbPlotSettings
  1

  2
C:\Program Files\AutoCAD 2002\plotters\DWF ePlot (optimized for plotting).pc3
  4

  6

 40
0.0
 41
0.0
 42
0.0
 43
0.0
 44
0.0
 45
0.0
 46
0.0
 47
0.0
 48
0.0
 49
0.0
140
0.0
141
0.0
142
1.0
143
1.0
 70
688
 72
0
 73
0
 74
5
  7

 75
16
147
1.0
148
0.0
149
0.0
100
AcDbLayout
  1
Layout1
 70
1
 71
1
 10
0.0
 20
0.0
 11
420.0
 21
297.0
 12
0.0
 22
0.0
 32
0.0
 14
100000000000000000000.0
 24
100000000000000000000.0
 34
100000000000000000000.0
 15
-100000000000000000000.0
 25
-100000000000000000000.0
 35
-100000000000000000000.0
146
0.0
 13
0.0
 23
0.0
 33
0.0
 16
1.0
 26
0.0
 36
0.0
 17
0.0
 27
1.0
 37
0.0
 76
0
330
1B
  0
LAYOUT
  5
22
100
AcDbPlotSettings
  1

  2
C:\Program Files\AutoCAD 2002\plotters\DWF ePlot (optimized for plotting).pc3
  4

  6

 40
0.0
 41
0.0
 42
0.0
 43
0.0
 44
0.0
 45
0.0
 46
0.0
 47
0.0
 48
0.0
 49
0.0
140
0.0
141
0.0
142
1.0
143
1.0
 70
1712
 72
0
 73
0
 74
0
  7

 75
0
147
1.0
148
0.0
149
0.0
100
AcDbLayout
  1
Model
 70
1
 71
0
 10
0.0
 20
0.0
 11
12.0
 21
9.0
 12
0.0
 22
0.0
 32
0.0
 14
0.0
 24
0.0
 34
0.0
 15
0.0
 25
0.0
 35
0.0
146
0.0
 13
0.0
 23
0.0
 33
0.0
 16
1.0
 26
0.0
 36
0.0
 17
0.0
 27
1.0
 37
0.0
 76
0
330
1F
  0
LAYOUT
  5
26
100
AcDbPlotSettings
  1

  2
C:\Program Files\AutoCAD 2002\plotters\DWF ePlot (optimized for plotting).pc3
  4

  6

 40
0.0
 41
0.0
 42
0.0
 43
0.0
 44
0.0
 45
0.0
 46
0.0
 47
0.0
 48
0.0
 49
0.0
140
0.0
141
0.0
142
1.0
143
1.0
 70
688
 72
0
 73
0
 74
5
  7

 75
16
147
1.0
148
0.0
149
0.0
100
AcDbLayout
  1
Layout2
 70
1
 71
2
 10
0.0
 20
0.0
 11
12.0
 21
9.0
 12
0.0
 22
0.0
 32
0.0
 14
0.0
 24
0.0
 34
0.0
 15
0.0
 25
0.0
 35
0.0
146
0.0
 13
0.0
 23
0.0
 33
0.0
 16
1.0
 26
0.0
 36
0.0
 17
0.0
 27
1.0
 37
0.0
 76
0
330
23
  0
DICTIONARY
  5
A3
100
AcDbDictionary
281
1
  3
DIMASSOC
350
A5
  3
HIDETEXT
350
A4
  0
DICTIONARYVAR
  5
A4
100
DictionaryVariables
280
0
  1
2
  0
DICTIONARYVAR
  5
A5
100
DictionaryVariables
280
0
  1
1
  0
ENDSEC
  0
EOF
