999
dxflib 2.0.4.8
  0
SECTION
  2
HEADER
  9
$ACADVER
  1
AC1015
  9
$HANDSEED
  5
FFFF
  9
$DIMASZ
 40
0.1
  9
$GRIDUNIT
 10
1.0
 20
1.0
  9
$DIMADEC
 70
2
  9
$DIMGAP
 40
0.025
  9
$SPLINESEGS
 70
8
  9
$AUPREC
 70
2
  9
$LUNITS
 70
5
  9
$DIMEXO
 40
0.025
  9
$INSUNITS
 70
2
  9
$DIMLUNIT
 70
5
  9
$DIMTXT
 40
0.1
  9
$GRIDMODE
 70
1
  9
$LUPREC
 70
2
  9
$PSVPSCALE
 40
0.0063819011769857
  9
$DIMSTYLE
  2
Standard
  9
$PLIMMAX
 10
0.7083333333333334
 20
0.9166666666666665
  9
$PLIMMIN
 10
0.0
 20
0.0
  9
$PINSBASE
 10
0.0426059739819105
 20
0.1967697623221493
 30
0.0
  9
$DIMEXE
 40
0.05
  9
$DIMAUNIT
 70
0
  9
$AUNITS
 70
0
  0
ENDSEC
  0
SECTION
  2
TABLES
  0
TABLE
  2
VPORT
  5
8
100
AcDbSymbolTable
 70
1
  0
VPORT
  5
30
100
AcDbSymbolTableRecord
100
AcDbViewportTableRecord
  2
*Active
 70
0
 10
0.0
 20
0.0
 11
1.0
 21
1.0
 12
286.3055555555554861
 22
148.5
 13
0.0
 23
0.0
 14
10.0
 24
10.0
 15
10.0
 25
10.0
 16
0.0
 26
0.0
 36
1.0
 17
0.0
 27
0.0
 37
0.0
 40
297.0
 41
1.92798353909465
 42
50.0
 43
0.0
 44
0.0
 50
0.0
 51
0.0
 71
0
 72
100
 73
1
 74
3
 75
1
 76
1
 77
0
 78
0
281
0
 65
1
110
0.0
120
0.0
130
0.0
111
1.0
121
0.0
131
0.0
112
0.0
122
1.0
132
0.0
 79
0
146
0.0
  0
ENDTAB
  0
TABLE
  2
LTYPE
  5
5
100
AcDbSymbolTable
 70
21
  0
LTYPE
  5
14
100
AcDbSymbolTableRecord
100
AcDbLinetypeTableRecord
  2
ByBlock
 70
0
  3

 72
65
 73
0
 40
0.0
  0
LTYPE
  5
15
100
AcDbSymbolTableRecord
100
AcDbLinetypeTableRecord
  2
ByLayer
 70
0
  3

 72
65
 73
0
 40
0.0
  0
LTYPE
  5
16
100
AcDbSymbolTableRecord
100
AcDbLinetypeTableRecord
  2
CONTINUOUS
 70
0
  3
Solid line
 72
65
 73
0
 40
0.0
  0
LTYPE
  5
31
100
AcDbSymbolTableRecord
100
AcDbLinetypeTableRecord
  2
DOT
 70
0
  3
Dot . . . . . . . . . . . . . . . . . . . . . .
 72
65
 73
2
 40
6.3499999999999996
 49
0.0
 74
0
 49
-6.3499999999999996
 74
0
  0
LTYPE
  5
32
100
AcDbSymbolTableRecord
100
AcDbLinetypeTableRecord
  2
DOT2
 70
0
  3
Dot (.5x) .....................................
 72
65
 73
2
 40
3.1749999999999998
 49
0.0
 74
0
 49
-3.1749999999999998
 74
0
  0
LTYPE
  5
33
100
AcDbSymbolTableRecord
100
AcDbLinetypeTableRecord
  2
DOTX2
 70
0
  3
Dot (2x) .  .  .  .  .  .  .  .  .  .  .  .  .
 72
65
 73
2
 40
12.6999999999999993
 49
0.0
 74
0
 49
-12.6999999999999993
 74
0
  0
LTYPE
  5
34
100
AcDbSymbolTableRecord
100
AcDbLinetypeTableRecord
  2
DASHED
 70
0
  3
Dashed __ __ __ __ __ __ __ __ __ __ __ __ __ _
 72
65
 73
2
 40
19.0500000000000007
 49
12.6999999999999993
 74
0
 49
-6.3499999999999996
 74
0
  0
LTYPE
  5
35
100
AcDbSymbolTableRecord
100
AcDbLinetypeTableRecord
  2
DASHED2
 70
0
  3
Dashed (.5x) _ _ _ _ _ _ _ _ _ _ _ _ _ _ _ _ _
 72
65
 73
2
 40
9.5250000000000004
 49
6.3499999999999996
 74
0
 49
-3.1749999999999998
 74
0
  0
LTYPE
  5
36
100
AcDbSymbolTableRecord
100
AcDbLinetypeTableRecord
  2
DASHEDX2
 70
0
  3
Dashed (2x) ____  ____  ____  ____  ____  ___
 72
65
 73
2
 40
38.1000000000000014
 49
25.3999999999999986
 74
0
 49
-12.6999999999999993
 74
0
  0
LTYPE
  5
37
100
AcDbSymbolTableRecord
100
AcDbLinetypeTableRecord
  2
DASHDOT
 70
0
  3
Dash dot __ . __ . __ . __ . __ . __ . __ . __
 72
65
 73
4
 40
25.3999999999999986
 49
12.6999999999999993
 74
0
 49
-6.3499999999999996
 74
0
 49
0.0
 74
0
 49
-6.3499999999999996
 74
0
  0
LTYPE
  5
38
100
AcDbSymbolTableRecord
100
AcDbLinetypeTableRecord
  2
DASHDOT2
 70
0
  3
Dash dot (.5x) _._._._._._._._._._._._._._._.
 72
65
 73
4
 40
12.6999999999999993
 49
6.3499999999999996
 74
0
 49
-3.1749999999999998
 74
0
 49
0.0
 74
0
 49
-3.1749999999999998
 74
0
  0
LTYPE
  5
39
100
AcDbSymbolTableRecord
100
AcDbLinetypeTableRecord
  2
DASHDOTX2
 70
0
  3
Dash dot (2x) ____  .  ____  .  ____  .  ___
 72
65
 73
4
 40
50.7999999999999972
 49
25.3999999999999986
 74
0
 49
-12.6999999999999993
 74
0
 49
0.0
 74
0
 49
-12.6999999999999993
 74
0
  0
LTYPE
  5
3A
100
AcDbSymbolTableRecord
100
AcDbLinetypeTableRecord
  2
DIVIDE
 70
0
  3
Divide ____ . . ____ . . ____ . . ____ . . ____
 72
65
 73
6
 40
31.75
 49
12.6999999999999993
 74
0
 49
-6.3499999999999996
 74
0
 49
0.0
 74
0
 49
-6.3499999999999996
 74
0
 49
0.0
 74
0
 49
-6.3499999999999996
 74
0
  0
LTYPE
  5
3B
100
AcDbSymbolTableRecord
100
AcDbLinetypeTableRecord
  2
DIVIDE2
 70
0
  3
Divide (.5x) __..__..__..__..__..__..__..__.._
 72
65
 73
6
 40
15.875
 49
6.3499999999999996
 74
0
 49
-3.1749999999999998
 74
0
 49
0.0
 74
0
 49
-3.1749999999999998
 74
0
 49
0.0
 74
0
 49
-3.1749999999999998
 74
0
  0
LTYPE
  5
3C
100
AcDbSymbolTableRecord
100
AcDbLinetypeTableRecord
  2
DIVIDEX2
 70
0
  3
Divide (2x) ________  .  .  ________  .  .  _
 72
65
 73
6
 40
63.5
 49
25.3999999999999986
 74
0
 49
-12.6999999999999993
 74
0
 49
0.0
 74
0
 49
-12.6999999999999993
 74
0
 49
0.0
 74
0
 49
-12.6999999999999993
 74
0
  0
LTYPE
  5
3D
100
AcDbSymbolTableRecord
100
AcDbLinetypeTableRecord
  2
CENTER
 70
0
  3
Center ____ _ ____ _ ____ _ ____ _ ____ _ ____
 72
65
 73
4
 40
50.7999999999999972
 49
31.75
 74
0
 49
-6.3499999999999996
 74
0
 49
6.3499999999999996
 74
0
 49
-6.3499999999999996
 74
0
  0
LTYPE
  5
3E
100
AcDbSymbolTableRecord
100
AcDbLinetypeTableRecord
  2
CENTER2
 70
0
  3
Center (.5x) ___ _ ___ _ ___ _ ___ _ ___ _ ___
 72
65
 73
4
 40
28.5749999999999993
 49
19.0500000000000007
 74
0
 49
-3.1749999999999998
 74
0
 49
3.1749999999999998
 74
0
 49
-3.1749999999999998
 74
0
  0
LTYPE
  5
3F
100
AcDbSymbolTableRecord
100
AcDbLinetypeTableRecord
  2
CENTERX2
 70
0
  3
Center (2x) ________  __  ________  __  _____
 72
65
 73
4
 40
101.5999999999999943
 49
63.5
 74
0
 49
-12.6999999999999993
 74
0
 49
12.6999999999999993
 74
0
 49
-12.6999999999999993
 74
0
  0
LTYPE
  5
40
100
AcDbSymbolTableRecord
100
AcDbLinetypeTableRecord
  2
BORDER
 70
0
  3
Border __ __ . __ __ . __ __ . __ __ . __ __ .
 72
65
 73
6
 40
44.4500000000000028
 49
12.6999999999999993
 74
0
 49
-6.3499999999999996
 74
0
 49
12.6999999999999993
 74
0
 49
-6.3499999999999996
 74
0
 49
0.0
 74
0
 49
-6.3499999999999996
 74
0
  0
LTYPE
  5
41
100
AcDbSymbolTableRecord
100
AcDbLinetypeTableRecord
  2
BORDER2
 70
0
  3
Border (.5x) __.__.__.__.__.__.__.__.__.__.__.
 72
65
 73
6
 40
22.2250000000000014
 49
6.3499999999999996
 74
0
 49
-3.1749999999999998
 74
0
 49
6.3499999999999996
 74
0
 49
-3.1749999999999998
 74
0
 49
0.0
 74
0
 49
-3.1749999999999998
 74
0
  0
LTYPE
  5
42
100
AcDbSymbolTableRecord
100
AcDbLinetypeTableRecord
  2
BORDERX2
 70
0
  3
Border (2x) ____  ____  .  ____  ____  .  ___
 72
65
 73
6
 40
88.9000000000000057
 49
25.3999999999999986
 74
0
 49
-12.6999999999999993
 74
0
 49
25.3999999999999986
 74
0
 49
-12.6999999999999993
 74
0
 49
0.0
 74
0
 49
-12.6999999999999993
 74
0
  0
ENDTAB
  0
TABLE
  2
LAYER
  5
2
100
AcDbSymbolTable
 70
3
  0
LAYER
  5
10
100
AcDbSymbolTableRecord
100
AcDbLayerTableRecord
  2
0
 70
0
 62
7
  6
CONTINUOUS
370
0
390
F
  0
LAYER
  5
43
100
AcDbSymbolTableRecord
100
AcDbLayerTableRecord
  2
Tables
 70
0
 62
6
  6
CONTINUOUS
370
0
390
F
  0
LAYER
  5
44
100
AcDbSymbolTableRecord
100
AcDbLayerTableRecord
  2
Network
 70
0
 62
3
  6
CONTINUOUS
370
-3
390
F
  0
ENDTAB
  0
TABLE
  2
STYLE
  5
3
100
AcDbSymbolTable
 70
1
  0
STYLE
  5
11
100
AcDbSymbolTableRecord
100
AcDbTextStyleTableRecord
  2
Standard
 70
0
 40
0.0
 41
0.75
 50
0.0
 71
0
 42
2.5
  3
txt
  4

  0
ENDTAB
  0
TABLE
  2
VIEW
  5
6
100
AcDbSymbolTable
 70
0
  0
ENDTAB
  0
TABLE
  2
UCS
  5
7
100
AcDbSymbolTable
 70
0
  0
ENDTAB
  0
TABLE
  2
APPID
  5
9
100
AcDbSymbolTable
 70
1
  0
APPID
  5
12
100
AcDbSymbolTableRecord
100
AcDbRegAppTableRecord
  2
ACAD
 70
0
  0
ENDTAB
  0
TABLE
  2
DIMSTYLE
  5
A
100
AcDbSymbolTable
 70
1
100
AcDbDimStyleTable
 71
0
  0
DIMSTYLE
105
27
100
AcDbSymbolTableRecord
100
AcDbDimStyleTableRecord
  2
Standard
 41
0.1
 42
0.025
 43
3.75
 44
0.05
 70
0
 73
0
 74
0
 77
1
 78
8
140
0.1
141
2.5
143
0.03937007874016
147
0.025
171
3
172
1
271
2
272
2
274
3
278
44
283
0
284
8
340
11
  0
ENDTAB
  0
TABLE
  2
BLOCK_RECORD
  5
1
100
AcDbSymbolTable
 70
1
  0
BLOCK_RECORD
  5
1F
100
AcDbSymbolTableRecord
100
AcDbBlockTableRecord
  2
*Model_Space
340
22
  0
BLOCK_RECORD
  5
1B
100
AcDbSymbolTableRecord
100
AcDbBlockTableRecord
  2
*Paper_Space
340
1E
  0
BLOCK_RECORD
  5
23
100
AcDbSymbolTableRecord
100
AcDbBlockTableRecord
  2
*Paper_Space0
340
26
  0
ENDTAB
  0
ENDSEC
  0
SECTION
  2
BLOCKS
  0
BLOCK
  5
20
100
AcDbEntity
  8
0
100
AcDbBlockBegin
  2
*Model_Space
 70
0
 10
0.0
 20
0.0
 30
0.0
  3
*Model_Space
  1

  0
ENDBLK
  5
21
100
AcDbEntity
  8
0
100
AcDbBlockEnd
  0
BLOCK
  5
1C
100
AcDbEntity
 67
1
  8
0
100
AcDbBlockBegin
  2
*Paper_Space
 70
0
 10
0.0
 20
0.0
 30
0.0
  3
*Paper_Space
  1

  0
ENDBLK
  5
1D
100
AcDbEntity
 67
1
  8
0
100
AcDbBlockEnd
  0
BLOCK
  5
24
100
AcDbEntity
  8
0
100
AcDbBlockBegin
  2
*Paper_Space0
 70
0
 10
0.0
 20
0.0
 30
0.0
  3
*Paper_Space0
  1

  0
ENDBLK
  5
25
100
AcDbEntity
  8
0
100
AcDbBlockEnd
  0
ENDSEC
  0
SECTION
  2
ENTITIES
  0
LINE
  5
45
100
AcDbEntity
100
AcDbLine
  8
0
 62
256
370
-1
  6
ByLayer
 10
0.0
 20
0.0
 30
0.0
 11
11.3333333333333339
 21
0.0
 31
0.0
  0
LINE
  5
46
100
AcDbEntity
100
AcDbLine
  8
0
 62
256
370
-1
  6
ByLayer
 10
19.0
 20
0.0
 30
0.0
 11
39.0
 21
0.0
 31
0.0
  0
LINE
  5
47
100
AcDbEntity
100
AcDbLine
  8
0
 62
256
370
-1
  6
ByLayer
 10
39.0
 20
0.0
 30
0.0
 11
39.0
 21
2.8333333333333335
 31
0.0
  0
LINE
  5
48
100
AcDbEntity
100
AcDbLine
  8
0
 62
256
370
-1
  6
ByLayer
 10
39.0
 20
2.8333333333333335
 30
0.0
 11
42.0
 21
2.8333333333333335
 31
0.0
  0
LINE
  5
49
100
AcDbEntity
100
AcDbLine
  8
0
 62
256
370
-1
  6
ByLayer
 10
42.0
 20
2.8333333333333335
 30
0.0
 11
42.0
 21
0.0000033333333334
 31
0.0
  0
LINE
  5
4A
100
AcDbEntity
100
AcDbLine
  8
0
 62
256
370
-1
  6
ByLayer
 10
42.0
 20
0.0000033333333334
 30
0.0
 11
68.1666666666666714
 21
0.0000033333333334
 31
0.0
  0
LINE
  5
4B
100
AcDbEntity
100
AcDbLine
  8
0
 62
256
370
-1
  6
ByLayer
 10
68.1666666666666714
 20
0.0000033333333334
 30
0.0
 11
80.0
 21
0.0
 31
0.0
  0
LINE
  5
4C
100
AcDbEntity
100
AcDbLine
  8
0
 62
256
370
-1
  6
ByLayer
 10
68.1666666666666714
 20
0.0000033333333334
 30
0.0
 11
79.9911321448893489
 21
4.3037568035146645
 31
0.0
  0
LINE
  5
4D
100
AcDbEntity
100
AcDbLine
  8
0
 62
256
370
-1
  6
ByLayer
 10
79.9911321448893489
 20
4.3037568035146645
 30
0.0
 11
79.9911321448893489
 21
19.1370901368479984
 31
0.0
  0
LINE
  5
4E
100
AcDbEntity
100
AcDbLine
  8
0
 62
256
370
-1
  6
ByLayer
 10
79.9911321448893489
 20
19.1370901368479984
 30
0.0
 11
79.9911321448893489
 21
32.3037568035146663
 31
0.0
  0
LINE
  5
4F
100
AcDbEntity
100
AcDbLine
  8
0
 62
256
370
-1
  6
ByLayer
 10
79.9911321448893489
 20
19.1370901368479984
 30
0.0
 11
71.1577988115560203
 21
32.3037568035146663
 31
0.0
  0
LINE
  5
50
100
AcDbEntity
100
AcDbLine
  8
0
 62
256
370
-1
  6
ByLayer
 10
71.1577988115560203
 20
32.3037568035146663
 30
0.0
 11
71.1577988115560203
 21
43.9704234701813306
 31
0.0
  0
LINE
  5
51
100
AcDbEntity
100
AcDbLine
  8
0
 62
256
370
-1
  6
ByLayer
 10
71.1577988115560203
 20
43.9704234701813306
 30
0.0
 11
79.9911321448893489
 21
57.1370901368479949
 31
0.0
  0
LINE
  5
52
100
AcDbEntity
100
AcDbLine
  8
0
 62
256
370
-1
  6
ByLayer
 10
79.9911321448893489
 20
57.1370901368479949
 30
0.0
 11
79.9911321448893489
 21
19.1370901368479984
 31
0.0
  0
LINE
  5
53
100
AcDbEntity
100
AcDbLine
  8
0
 62
256
370
-1
  6
ByLayer
 10
79.9911321448893489
 20
57.1370901368479949
 30
0.0
 11
79.9911321448893489
 21
77.7204234701813306
 31
0.0
  0
LINE
  5
54
100
AcDbEntity
100
AcDbLine
  8
0
 62
256
370
-1
  6
ByLayer
 10
79.9911321448893489
 20
77.7204234701813306
 30
0.0
 11
79.9911321448893489
 21
81.9704234701813306
 31
0.0
  0
LINE
  5
55
100
AcDbEntity
100
AcDbLine
  8
0
 62
256
370
-1
  6
ByLayer
 10
79.9911321448893489
 20
81.9704234701813306
 30
0.0
 11
68.1577991448893528
 21
81.9704234701813306
 31
0.0
  0
LINE
  5
56
100
AcDbEntity
100
AcDbLine
  8
0
 62
256
370
-1
  6
ByLayer
 10
68.1577991448893528
 20
81.9704234701813306
 30
0.0
 11
79.9911321448893489
 21
77.7204234701813306
 31
0.0
  0
LINE
  5
57
100
AcDbEntity
100
AcDbLine
  8
0
 62
256
370
-1
  6
ByLayer
 10
68.1577991448893528
 20
81.9704234701813306
 30
0.0
 11
42.4911324782226814
 21
81.9704234701813306
 31
0.0
  0
LINE
  5
58
100
AcDbEntity
100
AcDbLine
  8
0
 62
256
370
-1
  6
ByLayer
 10
42.4911324782226814
 20
81.9704234701813306
 30
0.0
 11
42.4911324782226814
 21
79.137090136848002
 31
0.0
  0
LINE
  5
59
100
AcDbEntity
100
AcDbLine
  8
0
 62
256
370
-1
  6
ByLayer
 10
42.4911324782226814
 20
79.137090136848002
 30
0.0
 11
39.4911324782226814
 21
79.137090136848002
 31
0.0
  0
LINE
  5
5A
100
AcDbEntity
100
AcDbLine
  8
0
 62
256
370
-1
  6
ByLayer
 10
39.4911324782226814
 20
79.137090136848002
 30
0.0
 11
39.4911324782226814
 21
81.9704234701813306
 31
0.0
  0
LINE
  5
5B
100
AcDbEntity
100
AcDbLine
  8
0
 62
256
370
-1
  6
ByLayer
 10
39.4911324782226814
 20
81.9704234701813306
 30
0.0
 11
7.7411324782226814
 21
81.9704234701813306
 31
0.0
  0
LINE
  5
5C
100
AcDbEntity
100
AcDbLine
  8
0
 62
256
370
-1
  6
ByLayer
 10
7.7411324782226814
 20
81.9704234701813306
 30
0.0
 11
0.0
 21
82.0
 31
0.0
  0
LINE
  5
5D
100
AcDbEntity
100
AcDbLine
  8
0
 62
256
370
-1
  6
ByLayer
 10
0.0
 20
82.0
 30
0.0
 11
0.0
 21
76.9166666666666714
 31
0.0
  0
LINE
  5
5E
100
AcDbEntity
100
AcDbLine
  8
0
 62
256
370
-1
  6
ByLayer
 10
0.0
 20
65.5833333333333428
 30
0.0
 11
0.0
 21
41.5000000000000142
 31
0.0
  0
LINE
  5
5F
100
AcDbEntity
100
AcDbLine
  8
0
 62
256
370
-1
  6
ByLayer
 10
0.0
 20
41.5000000000000142
 30
0.0
 11
8.5833333333333339
 21
41.5000000000000142
 31
0.0
  0
LINE
  5
60
100
AcDbEntity
100
AcDbLine
  8
0
 62
256
370
-1
  6
ByLayer
 10
0.0
 20
0.0
 30
0.0
 11
0.0
 21
34.1666666666666643
 31
0.0
  0
LINE
  5
61
100
AcDbEntity
100
AcDbLine
  8
0
 62
256
370
-1
  6
ByLayer
 10
0.0
 20
34.1666666666666643
 30
0.0
 11
8.5833333333333339
 21
34.1666666666666643
 31
0.0
  0
LINE
  5
62
100
AcDbEntity
100
AcDbLine
  8
0
 62
256
370
-1
  6
ByLayer
 10
8.5833333333333339
 20
34.1666666666666643
 30
0.0
 11
8.5833333333333339
 21
41.5000000000000142
 31
0.0
  0
MTEXT
  5
63
100
AcDbEntity
100
AcDbMText
  8
Network
 62
256
370
-1
  6
ByLayer
 10
92.25
 20
28.0
 30
0.0
 40
1.0
 41
100.0
 71
1
 72
2
  1
Network
  7
normallatin1
 50
0.0
 73
1
 44
1.0
  0
LINE
  5
64
100
AcDbEntity
100
AcDbLine
  8
Tables
 62
256
370
-1
  6
ByLayer
 10
8.5833333333333339
 20
38.0175444241316427
 30
0.0
 11
71.1577988115560203
 21
38.0175444241316427
 31
0.0
  0
LINE
  5
65
100
AcDbEntity
100
AcDbLine
  8
Tables
 62
256
370
-1
  6
ByLayer
 10
33.5028970401106463
 20
45.4999999999999929
 30
0.0
 11
41.5028970401106463
 21
45.4999999999999929
 31
0.0
  0
LINE
  5
66
100
AcDbEntity
100
AcDbLine
  8
Tables
 62
256
370
-1
  6
ByLayer
 10
41.5028970401106463
 20
47.9999999999999929
 30
0.0
 11
33.5028970401106463
 21
47.9999999999999929
 31
0.0
  0
LINE
  5
67
100
AcDbEntity
100
AcDbLine
  8
Tables
 62
256
370
-1
  6
ByLayer
 10
33.5028970401106463
 20
47.9999999999999929
 30
0.0
 11
33.5028970401106463
 21
45.4999999999999929
 31
0.0
  0
LINE
  5
68
100
AcDbEntity
100
AcDbLine
  8
Tables
 62
256
370
-1
  6
ByLayer
 10
31.0028970401106463
 20
39.9999999999999929
 30
0.0
 11
33.5028970401106463
 21
39.9999999999999929
 31
0.0
  0
LINE
  5
69
100
AcDbEntity
100
AcDbLine
  8
Tables
 62
256
370
-1
  6
ByLayer
 10
33.5028970401106463
 20
39.9999999999999929
 30
0.0
 11
33.5028970401106463
 21
47.9999999999999929
 31
0.0
  0
LINE
  5
6A
100
AcDbEntity
100
AcDbLine
  8
Tables
 62
256
370
-1
  6
ByLayer
 10
33.5028970401106463
 20
47.9999999999999929
 30
0.0
 11
31.0028970401106463
 21
47.9999999999999929
 31
0.0
  0
LINE
  5
6B
100
AcDbEntity
100
AcDbLine
  8
Tables
 62
256
370
-1
  6
ByLayer
 10
31.0028970401106463
 20
47.9999999999999929
 30
0.0
 11
31.0028970401106463
 21
39.9999999999999929
 31
0.0
  0
LINE
  5
6C
100
AcDbEntity
100
AcDbLine
  8
Tables
 62
256
370
-1
  6
ByLayer
 10
41.5028970401106463
 20
45.4999999999999929
 30
0.0
 11
41.5028970401106463
 21
47.9999999999999929
 31
0.0
  0
LINE
  5
6D
100
AcDbEntity
100
AcDbLine
  8
Tables
 62
256
370
-1
  6
ByLayer
 10
49.6341328907330919
 20
45.5
 30
0.0
 11
41.6341328907330919
 21
45.4999999999999929
 31
0.0
  0
LINE
  5
6E
100
AcDbEntity
100
AcDbLine
  8
Tables
 62
256
370
-1
  6
ByLayer
 10
41.6341328907330919
 20
47.9999999999999929
 30
0.0
 11
49.6341328907330919
 21
47.9999999999999076
 31
0.0
  0
LINE
  5
6F
100
AcDbEntity
100
AcDbLine
  8
Tables
 62
256
370
-1
  6
ByLayer
 10
49.6341328907330919
 20
47.9999999999999076
 30
0.0
 11
49.6341328907330919
 21
45.5
 31
0.0
  0
LINE
  5
70
100
AcDbEntity
100
AcDbLine
  8
Tables
 62
256
370
-1
  6
ByLayer
 10
52.1341328907330919
 20
39.9999999999999929
 30
0.0
 11
49.6341328907330919
 21
39.9999999999999929
 31
0.0
  0
LINE
  5
71
100
AcDbEntity
100
AcDbLine
  8
Tables
 62
256
370
-1
  6
ByLayer
 10
49.6341328907330919
 20
39.9999999999999929
 30
0.0
 11
49.6341328907330919
 21
47.9999999999999076
 31
0.0
  0
LINE
  5
72
100
AcDbEntity
100
AcDbLine
  8
Tables
 62
256
370
-1
  6
ByLayer
 10
49.6341328907330919
 20
47.9999999999999076
 30
0.0
 11
52.1341328907330919
 21
47.9999999999999929
 31
0.0
  0
LINE
  5
73
100
AcDbEntity
100
AcDbLine
  8
Tables
 62
256
370
-1
  6
ByLayer
 10
52.1341328907330919
 20
47.9999999999999929
 30
0.0
 11
52.1341328907330919
 21
39.9999999999999929
 31
0.0
  0
LINE
  5
74
100
AcDbEntity
100
AcDbLine
  8
Tables
 62
256
370
-1
  6
ByLayer
 10
41.6341328907330919
 20
45.4999999999999929
 30
0.0
 11
41.6341328907330919
 21
47.9999999999999929
 31
0.0
  0
LINE
  5
75
100
AcDbEntity
100
AcDbLine
  8
Tables
 62
256
370
-1
  6
ByLayer
 10
49.6341328907330848
 20
32.5549857814661436
 30
0.0
 11
41.6341328907330919
 21
32.5549857814661436
 31
0.0
  0
LINE
  5
76
100
AcDbEntity
100
AcDbLine
  8
Tables
 62
256
370
-1
  6
ByLayer
 10
41.6341328907330919
 20
30.0549857814661472
 30
0.0
 11
49.634132890733099
 21
30.0549857814661543
 31
0.0
  0
LINE
  5
77
100
AcDbEntity
100
AcDbLine
  8
Tables
 62
256
370
-1
  6
ByLayer
 10
49.634132890733099
 20
30.0549857814661543
 30
0.0
 11
49.6341328907330848
 21
32.5549857814661436
 31
0.0
  0
LINE
  5
78
100
AcDbEntity
100
AcDbLine
  8
Tables
 62
256
370
-1
  6
ByLayer
 10
41.6341328907330919
 20
32.5549857814661436
 30
0.0
 11
41.6341328907330919
 21
30.0549857814661472
 31
0.0
  0
LINE
  5
79
100
AcDbEntity
100
AcDbLine
  8
Tables
 62
256
370
-1
  6
ByLayer
 10
33.5028970401106463
 20
32.5549857814661436
 30
0.0
 11
41.5028970401106463
 21
32.5549857814661436
 31
0.0
  0
LINE
  5
7A
100
AcDbEntity
100
AcDbLine
  8
Tables
 62
256
370
-1
  6
ByLayer
 10
41.5028970401106463
 20
30.0549857814661472
 30
0.0
 11
33.5028970401106463
 21
30.0549857814662325
 31
0.0
  0
LINE
  5
7B
100
AcDbEntity
100
AcDbLine
  8
Tables
 62
256
370
-1
  6
ByLayer
 10
33.5028970401106463
 20
30.0549857814662325
 30
0.0
 11
33.5028970401106463
 21
32.5549857814661436
 31
0.0
  0
LINE
  5
7C
100
AcDbEntity
100
AcDbLine
  8
Tables
 62
256
370
-1
  6
ByLayer
 10
31.0028970401106463
 20
38.0549857814661436
 30
0.0
 11
33.5028970401106463
 21
38.0549857814661436
 31
0.0
  0
LINE
  5
7D
100
AcDbEntity
100
AcDbLine
  8
Tables
 62
256
370
-1
  6
ByLayer
 10
33.5028970401106463
 20
38.0549857814661436
 30
0.0
 11
33.5028970401106463
 21
30.0549857814662325
 31
0.0
  0
LINE
  5
7E
100
AcDbEntity
100
AcDbLine
  8
Tables
 62
256
370
-1
  6
ByLayer
 10
33.5028970401106463
 20
30.0549857814662325
 30
0.0
 11
31.0028970401106463
 21
30.0549857814661472
 31
0.0
  0
LINE
  5
7F
100
AcDbEntity
100
AcDbLine
  8
Tables
 62
256
370
-1
  6
ByLayer
 10
31.0028970401106463
 20
30.0549857814661472
 30
0.0
 11
31.0028970401106463
 21
38.0549857814661436
 31
0.0
  0
LINE
  5
80
100
AcDbEntity
100
AcDbLine
  8
Tables
 62
256
370
-1
  6
ByLayer
 10
41.5028970401106463
 20
32.5549857814661436
 30
0.0
 11
41.5028970401106463
 21
30.0549857814661472
 31
0.0
  0
LINE
  5
81
100
AcDbEntity
100
AcDbLine
  8
Tables
 62
256
370
-1
  6
ByLayer
 10
77.6225737206085853
 20
70.0221913139695857
 30
0.0
 11
77.6225737206085853
 21
62.0221913139695857
 31
0.0
  0
LINE
  5
82
100
AcDbEntity
100
AcDbLine
  8
Tables
 62
256
370
-1
  6
ByLayer
 10
77.6225737206085853
 20
62.0221913139695857
 30
0.0
 11
75.1225737206085853
 21
62.0221913139695857
 31
0.0
  0
LINE
  5
83
100
AcDbEntity
100
AcDbLine
  8
Tables
 62
256
370
-1
  6
ByLayer
 10
75.1225737206085853
 20
62.0221913139695857
 30
0.0
 11
75.1225737206085853
 21
70.0221913139695857
 31
0.0
  0
LINE
  5
84
100
AcDbEntity
100
AcDbLine
  8
Tables
 62
256
370
-1
  6
ByLayer
 10
75.1225737206085853
 20
70.0221913139695857
 30
0.0
 11
77.6225737206085853
 21
70.0221913139695857
 31
0.0
  0
LINE
  5
85
100
AcDbEntity
100
AcDbLine
  8
Network
 62
256
370
-1
  6
ByLayer
 10
30.8633502766251908
 20
23.1940943568464739
 30
0.0
 11
38.3968291839557594
 21
10.9776420746888093
 31
0.0
  0
LINE
  5
86
100
AcDbEntity
100
AcDbLine
  8
Network
 62
256
370
-1
  6
ByLayer
 10
38.3968291839557594
 20
10.9776420746888093
 30
0.0
 11
22.7190487551867406
 21
10.7740345366528434
 31
0.0
  0
LINE
  5
87
100
AcDbEntity
100
AcDbLine
  8
Network
 62
256
370
-1
  6
ByLayer
 10
46.9483457814661307
 20
23.1940943568464846
 30
0.0
 11
63.8477714384509198
 21
23.1940943568464917
 31
0.0
  0
LINE
  5
88
100
AcDbEntity
100
AcDbLine
  8
Network
 62
256
370
-1
  6
ByLayer
 10
46.9483457814661307
 20
23.1940943568464846
 30
0.0
 11
54.0746096127247711
 21
10.6608906915629422
 31
0.0
  0
LINE
  5
89
100
AcDbEntity
100
AcDbLine
  8
Network
 62
256
370
-1
  6
ByLayer
 10
54.0746096127247711
 20
10.6608906915629422
 30
0.0
 11
70.7704277316736068
 21
11.0590850899031814
 31
0.0
  0
LINE
  5
8A
100
AcDbEntity
100
AcDbLine
  8
Network
 62
256
370
-1
  6
ByLayer
 10
51.0482646749654236
 20
60.0
 30
0.0
 11
67.0482646749654236
 21
60.0
 31
0.0
  0
LINE
  5
8B
100
AcDbEntity
100
AcDbLine
  8
Network
 62
256
370
-1
  6
ByLayer
 10
51.0482646749654236
 20
60.0
 30
0.0
 11
43.0482646749654236
 21
74.0
 31
0.0
  0
LINE
  5
8C
100
AcDbEntity
100
AcDbLine
  8
Network
 62
256
370
-1
  6
ByLayer
 10
43.0482646749654236
 20
74.0
 30
0.0
 11
59.0482646749654236
 21
74.0
 31
0.0
  0
LINE
  5
8D
100
AcDbEntity
100
AcDbLine
  8
Network
 62
256
370
-1
  6
ByLayer
 10
35.0482646749654236
 20
60.0
 30
0.0
 11
27.0482646749654201
 21
74.0
 31
0.0
  0
LINE
  5
8E
100
AcDbEntity
100
AcDbLine
  8
Network
 62
256
370
-1
  6
ByLayer
 10
27.0482646749654201
 20
74.0
 30
0.0
 11
11.0482646749654201
 21
74.0
 31
0.0
  0
LINE
  5
8F
100
AcDbEntity
100
AcDbLine
  8
Network
 62
256
370
-1
  6
ByLayer
 10
35.0482646749654236
 20
60.0
 30
0.0
 11
19.0482646749654201
 21
60.0
 31
0.0
  0
LINE
  5
90
100
AcDbEntity
100
AcDbLine
  8
Network
 62
256
370
-1
  6
ByLayer
 10
35.0482646749654236
 20
60.0
 30
0.0
 11
35.0530737482711032
 21
46.9111767634854928
 31
0.0
  0
LINE
  5
91
100
AcDbEntity
100
AcDbLine
  8
Network
 62
256
370
-1
  6
ByLayer
 10
30.8633502766251908
 20
23.1940943568464739
 30
0.0
 11
32.1862796127247677
 21
31.6650443153527057
 31
0.0
  0
LINE
  5
92
100
AcDbEntity
100
AcDbLine
  8
Network
 62
256
370
-1
  6
ByLayer
 10
46.9483457814661307
 20
23.1940943568464846
 30
0.0
 11
46.9111767634854928
 21
31.2741178423236619
 31
0.0
  0
LINE
  5
93
100
AcDbEntity
100
AcDbLine
  8
Network
 62
256
370
-1
  6
ByLayer
 10
67.0482646749654236
 20
60.0
 30
0.0
 11
78.8368387275242242
 21
60.9845297925311414
 31
0.0
  0
LINE
  5
94
100
AcDbEntity
100
AcDbLine
  8
Network
 62
256
370
-1
  6
ByLayer
 10
51.0482646749654236
 20
60.0
 30
0.0
 11
51.0810591424619815
 21
46.6505591147994636
 31
0.0
  0
LINE
  5
95
100
AcDbEntity
100
AcDbLine
  8
Network
 62
4
370
-1
  6
ByLayer
 10
50.9605634854771807
 20
43.8827074458275703
 30
0.0
 11
63.0940309820193619
 21
40.0404427385892134
 31
0.0
  0
LINE
  5
96
100
AcDbEntity
100
AcDbLine
  8
Network
 62
4
370
-1
  6
ByLayer
 10
22.2446904103273404
 20
11.1223452051636702
 30
0.0
 11
9.1216177040110686
 21
15.3764412724757999
 31
0.0
  0
LINE
  5
97
100
AcDbEntity
100
AcDbLine
  8
Tables
 62
256
370
-1
  6
ByLayer
 10
8.291202789303826
 20
19.817996911018902
 30
0.0
 11
10.3134473720608568
 21
19.817996911018902
 31
0.0
  0
LINE
  5
98
100
AcDbEntity
100
AcDbLine
  8
Tables
 62
256
370
-1
  6
ByLayer
 10
10.3134473720608568
 20
19.817996911018902
 30
0.0
 11
10.3134473720608568
 21
13.7512631627478097
 31
0.0
  0
LINE
  5
99
100
AcDbEntity
100
AcDbLine
  8
Tables
 62
256
370
-1
  6
ByLayer
 10
10.3134473720608568
 20
13.7512631627478097
 30
0.0
 11
8.291202789303826
 21
13.7512631627478097
 31
0.0
  0
LINE
  5
9A
100
AcDbEntity
100
AcDbLine
  8
Tables
 62
256
370
-1
  6
ByLayer
 10
8.291202789303826
 20
13.7512631627478097
 30
0.0
 11
8.291202789303826
 21
19.817996911018902
 31
0.0
  0
LINE
  5
9B
100
AcDbEntity
100
AcDbLine
  8
Tables
 62
256
370
-1
  6
ByLayer
 10
62.4873576071922514
 20
41.8604628630705378
 30
0.0
 11
64.5096021899492911
 21
41.8604628630705378
 31
0.0
  0
LINE
  5
9C
100
AcDbEntity
100
AcDbLine
  8
Tables
 62
256
370
-1
  6
ByLayer
 10
64.5096021899492911
 20
41.8604628630705378
 30
0.0
 11
64.5096021899492911
 21
35.7937291147994472
 31
0.0
  0
LINE
  5
9D
100
AcDbEntity
100
AcDbLine
  8
Tables
 62
256
370
-1
  6
ByLayer
 10
64.5096021899492911
 20
35.7937291147994472
 30
0.0
 11
62.4873576071922514
 21
35.7937291147994472
 31
0.0
  0
LINE
  5
9E
100
AcDbEntity
100
AcDbLine
  8
Tables
 62
256
370
-1
  6
ByLayer
 10
62.4873576071922514
 20
35.7937291147994472
 30
0.0
 11
62.4873576071922514
 21
41.8604628630705378
 31
0.0
  0
CIRCLE
  5
9F
100
AcDbEntity
100
AcDbCircle
  8
Tables
 62
256
370
-1
  6
ByLayer
 10
11.1223452051636702
 20
73.8119272706316281
 30
0.0
 40
3.0
  0
CIRCLE
  5
A0
100
AcDbEntity
100
AcDbCircle
  8
Tables
 62
256
370
-1
  6
ByLayer
 10
27.3003018672199183
 20
74.0141517289073363
 30
0.0
 40
3.0
  0
CIRCLE
  5
A1
100
AcDbEntity
100
AcDbCircle
  8
Tables
 62
256
370
-1
  6
ByLayer
 10
43.2760340710004598
 20
73.6097028123559198
 30
0.0
 40
3.0
  0
CIRCLE
  5
A2
100
AcDbEntity
100
AcDbCircle
  8
Tables
 62
256
370
-1
  6
ByLayer
 10
59.0495418165053039
 20
74.0141517289073363
 30
0.0
 40
3.0
  0
CIRCLE
  5
A3
100
AcDbEntity
100
AcDbCircle
  8
Tables
 62
256
370
-1
  6
ByLayer
 10
50.9605634854771807
 20
60.0606641078838166
 30
0.0
 40
3.0
  0
CIRCLE
  5
A4
100
AcDbEntity
100
AcDbCircle
  8
Tables
 62
256
370
-1
  6
ByLayer
 10
68.1496424389119397
 20
59.8584396496081155
 30
0.0
 40
3.0
  0
CIRCLE
  5
A5
100
AcDbEntity
100
AcDbCircle
  8
Tables
 62
256
370
-1
  6
ByLayer
 10
34.7826068234209274
 20
60.0606641078838166
 30
0.0
 40
3.0
  0
CIRCLE
  5
A6
100
AcDbEntity
100
AcDbCircle
  8
Tables
 62
256
370
-1
  6
ByLayer
 10
19.0090990779160904
 20
59.8584396496081155
 30
0.0
 40
3.0
  0
CIRCLE
  5
A7
100
AcDbEntity
100
AcDbCircle
  8
Tables
 62
256
370
-1
  6
ByLayer
 10
30.5358931996311647
 20
22.8513637851544473
 30
0.0
 40
3.0
  0
CIRCLE
  5
A8
100
AcDbEntity
100
AcDbCircle
  8
Tables
 62
256
370
-1
  6
ByLayer
 10
47.1182987782388167
 20
23.053588243430152
 30
0.0
 40
3.0
  0
CIRCLE
  5
A9
100
AcDbEntity
100
AcDbCircle
  8
Tables
 62
256
370
-1
  6
ByLayer
 10
63.9029288151221735
 20
23.2558127017058531
 30
0.0
 40
3.0
  0
CIRCLE
  5
AA
100
AcDbEntity
100
AcDbCircle
  8
Tables
 62
256
370
-1
  6
ByLayer
 10
53.5894814430613167
 20
10.5156718303365597
 30
0.0
 40
3.0
  0
CIRCLE
  5
AB
100
AcDbEntity
100
AcDbCircle
  8
Tables
 62
256
370
-1
  6
ByLayer
 10
69.7674381051175629
 20
11.1223452051636702
 30
0.0
 40
3.0
  0
CIRCLE
  5
AC
100
AcDbEntity
100
AcDbCircle
  8
Tables
 62
256
370
-1
  6
ByLayer
 10
37.8159736975564797
 20
10.9201207468879673
 30
0.0
 40
3.0
  0
CIRCLE
  5
AD
100
AcDbEntity
100
AcDbCircle
  8
Tables
 62
256
370
-1
  6
ByLayer
 10
22.6491393268787462
 20
10.7178962886122644
 30
0.0
 40
3.0
  0
LINE
  5
AE
100
AcDbEntity
100
AcDbLine
  8
0
 62
256
370
-1
  6
ByLayer
 10
87.6164383561643803
 20
41.4595267745952683
 30
0.0
 11
87.6164383561643803
 21
51.4595267745952683
 31
0.0
  0
LINE
  5
AF
100
AcDbEntity
100
AcDbLine
  8
Tables
 62
256
370
-1
  6
ByLayer
 10
2.0
 20
60.0
 30
0.0
 11
2.3486924034869241
 21
60.0
 31
0.0
  0
LINE
  5
B0
100
AcDbEntity
100
AcDbLine
  8
Tables
 62
256
370
-1
  6
ByLayer
 10
2.3486924034869241
 20
60.0
 30
0.0
 11
2.3486924034869241
 21
50.0373599003735947
 31
0.0
  0
LINE
  5
B1
100
AcDbEntity
100
AcDbLine
  8
Tables
 62
256
370
-1
  6
ByLayer
 10
2.3486924034869241
 20
50.0373599003735947
 30
0.0
 11
2.0
 21
50.0373599003735947
 31
0.0
  0
LINE
  5
B2
100
AcDbEntity
100
AcDbLine
  8
Tables
 62
256
370
-1
  6
ByLayer
 10
2.0
 20
50.0373599003735947
 30
0.0
 11
2.0
 21
60.0
 31
0.0
  0
LINE
  5
B3
100
AcDbEntity
100
AcDbLine
  8
Tables
 62
256
370
-1
  6
ByLayer
 10
2.0
 20
22.0
 30
0.0
 11
2.3486924034869241
 21
22.0
 31
0.0
  0
LINE
  5
B4
100
AcDbEntity
100
AcDbLine
  8
Tables
 62
256
370
-1
  6
ByLayer
 10
2.3486924034869241
 20
22.0
 30
0.0
 11
2.3486924034869241
 21
11.9476961394769603
 31
0.0
  0
LINE
  5
B5
100
AcDbEntity
100
AcDbLine
  8
Tables
 62
256
370
-1
  6
ByLayer
 10
2.3486924034869241
 20
11.9476961394769603
 30
0.0
 11
2.0
 21
11.9476961394769603
 31
0.0
  0
LINE
  5
B6
100
AcDbEntity
100
AcDbLine
  8
Tables
 62
256
370
-1
  6
ByLayer
 10
2.0
 20
11.9476961394769603
 30
0.0
 11
2.0
 21
22.0
 31
0.0
  0
LINE
  5
B7
100
AcDbEntity
100
AcDbLine
  8
Tables
 62
256
370
-1
  6
ByLayer
 10
68.0
 20
44.0
 30
0.0
 11
68.5205479452054789
 21
44.0
 31
0.0
  0
LINE
  5
B8
100
AcDbEntity
100
AcDbLine
  8
Tables
 62
256
370
-1
  6
ByLayer
 10
68.5205479452054789
 20
44.0
 30
0.0
 11
68.5205479452054789
 21
37.1706102117060979
 31
0.0
  0
LINE
  5
B9
100
AcDbEntity
100
AcDbLine
  8
Tables
 62
256
370
-1
  6
ByLayer
 10
68.5205479452054789
 20
37.1706102117060979
 30
0.0
 11
68.0
 21
37.1706102117060979
 31
0.0
  0
LINE
  5
BA
100
AcDbEntity
100
AcDbLine
  8
Tables
 62
256
370
-1
  6
ByLayer
 10
68.0
 20
37.1706102117060979
 30
0.0
 11
68.0
 21
44.0
 31
0.0
  0
LINE
  5
BB
100
AcDbEntity
100
AcDbLine
  8
Network
 62
4
370
-1
  6
ByLayer
 10
19.0250883540802285
 20
60.0723680221300356
 30
0.0
 11
8.8841843088418422
 21
55.1432129514321261
 31
0.0
  0
LINE
  5
BC
100
AcDbEntity
100
AcDbLine
  8
Tables
 62
256
370
-1
  6
ByLayer
 10
7.8626379075527613
 20
58.3588383545567595
 30
0.0
 11
9.884882490309792
 21
58.3588383545567595
 31
0.0
  0
LINE
  5
BD
100
AcDbEntity
100
AcDbLine
  8
Tables
 62
256
370
-1
  6
ByLayer
 10
9.884882490309792
 20
58.3588383545567595
 30
0.0
 11
9.884882490309792
 21
52.2921046062856689
 31
0.0
  0
LINE
  5
BE
100
AcDbEntity
100
AcDbLine
  8
Tables
 62
256
370
-1
  6
ByLayer
 10
9.884882490309792
 20
52.2921046062856689
 30
0.0
 11
7.8626379075527613
 21
52.2921046062856689
 31
0.0
  0
LINE
  5
BF
100
AcDbEntity
100
AcDbLine
  8
Tables
 62
256
370
-1
  6
ByLayer
 10
7.8626379075527613
 20
52.2921046062856689
 30
0.0
 11
7.8626379075527613
 21
58.3588383545567595
 31
0.0
  0
ENDSEC
  0
SECTION
  2
OBJECTS
  0
DICTIONARY
  5
C
100
AcDbDictionary
280
0
281
1
  3
ACAD_GROUP
350
D
  3
ACAD_LAYOUT
350
1A
  3
ACAD_MLINESTYLE
350
17
  3
ACAD_PLOTSETTINGS
350
19
  3
ACAD_PLOTSTYLENAME
350
E
  3
AcDbVariableDictionary
350
C0
  0
DICTIONARY
  5
D
100
AcDbDictionary
280
0
281
1
  0
ACDBDICTIONARYWDFLT
  5
E
100
AcDbDictionary
281
1
  3
Normal
350
F
100
AcDbDictionaryWithDefault
340
F
  0
ACDBPLACEHOLDER
  5
F
  0
DICTIONARY
  5
17
100
AcDbDictionary
280
0
281
1
  3
Standard
350
18
  0
MLINESTYLE
  5
18
100
AcDbMlineStyle
  2
STANDARD
 70
0
  3

 62
256
 51
90.0
 52
90.0
 71
2
 49
0.5
 62
256
  6
BYLAYER
 49
-0.5
 62
256
  6
BYLAYER
  0
DICTIONARY
  5
19
100
AcDbDictionary
280
0
281
1
  0
DICTIONARY
  5
1A
100
AcDbDictionary
281
1
  3
Layout1
350
1E
  3
Layout2
350
26
  3
Model
350
22
  0
LAYOUT
  5
1E
100
AcDbPlotSettings
  1

  2
C:\Program Files\AutoCAD 2002\plotters\DWF ePlot (optimized for plotting).pc3
  4

  6

 40
0.0
 41
0.0
 42
0.0
 43
0.0
 44
0.0
 45
0.0
 46
0.0
 47
0.0
 48
0.0
 49
0.0
140
0.0
141
0.0
142
1.0
143
1.0
 70
688
 72
0
 73
0
 74
5
  7

 75
16
147
1.0
148
0.0
149
0.0
100
AcDbLayout
  1
Layout1
 70
1
 71
1
 10
0.0
 20
0.0
 11
420.0
 21
297.0
 12
0.0
 22
0.0
 32
0.0
 14
100000000000000000000.0
 24
100000000000000000000.0
 34
100000000000000000000.0
 15
-100000000000000000000.0
 25
-100000000000000000000.0
 35
-100000000000000000000.0
146
0.0
 13
0.0
 23
0.0
 33
0.0
 16
1.0
 26
0.0
 36
0.0
 17
0.0
 27
1.0
 37
0.0
 76
0
330
1B
  0
LAYOUT
  5
22
100
AcDbPlotSettings
  1

  2
C:\Program Files\AutoCAD 2002\plotters\DWF ePlot (optimized for plotting).pc3
  4

  6

 40
0.0
 41
0.0
 42
0.0
 43
0.0
 44
0.0
 45
0.0
 46
0.0
 47
0.0
 48
0.0
 49
0.0
140
0.0
141
0.0
142
1.0
143
1.0
 70
1712
 72
0
 73
0
 74
0
  7

 75
0
147
1.0
148
0.0
149
0.0
100
AcDbLayout
  1
Model
 70
1
 71
0
 10
0.0
 20
0.0
 11
12.0
 21
9.0
 12
0.0
 22
0.0
 32
0.0
 14
0.0
 24
0.0
 34
0.0
 15
0.0
 25
0.0
 35
0.0
146
0.0
 13
0.0
 23
0.0
 33
0.0
 16
1.0
 26
0.0
 36
0.0
 17
0.0
 27
1.0
 37
0.0
 76
0
330
1F
  0
LAYOUT
  5
26
100
AcDbPlotSettings
  1

  2
C:\Program Files\AutoCAD 2002\plotters\DWF ePlot (optimized for plotting).pc3
  4

  6

 40
0.0
 41
0.0
 42
0.0
 43
0.0
 44
0.0
 45
0.0
 46
0.0
 47
0.0
 48
0.0
 49
0.0
140
0.0
141
0.0
142
1.0
143
1.0
 70
688
 72
0
 73
0
 74
5
  7

 75
16
147
1.0
148
0.0
149
0.0
100
AcDbLayout
  1
Layout2
 70
1
 71
2
 10
0.0
 20
0.0
 11
12.0
 21
9.0
 12
0.0
 22
0.0
 32
0.0
 14
0.0
 24
0.0
 34
0.0
 15
0.0
 25
0.0
 35
0.0
146
0.0
 13
0.0
 23
0.0
 33
0.0
 16
1.0
 26
0.0
 36
0.0
 17
0.0
 27
1.0
 37
0.0
 76
0
330
23
  0
DICTIONARY
  5
C0
100
AcDbDictionary
281
1
  3
DIMASSOC
350
C2
  3
HIDETEXT
350
C1
  0
DICTIONARYVAR
  5
C1
100
DictionaryVariables
280
0
  1
2
  0
DICTIONARYVAR
  5
C2
100
DictionaryVariables
280
0
  1
1
  0
ENDSEC
  0
EOF
